  0
SECTION
  2
HEADER
  9
$ACADVER
  1
AC1015
  9
$ACADMAINTVER
 70
     6
  9
$DWGCODEPAGE
  3
ANSI_1254
  9
$INSBASE
 10
0.0
 20
0.0
 30
0.0
  9
$EXTMIN
 10
0.0
 20
0.0
 30
0.0
  9
$EXTMAX
 10
279.4
 20
215.9
 30
0.0
  9
$LIMMIN
 10
0.0
 20
0.0
  9
$LIMMAX
 10
279.4
 20
215.9
  9
$ORTHOMODE
 70
     0
  9
$REGENMODE
 70
     1
  9
$FILLMODE
 70
     1
  9
$QTEXTMODE
 70
     0
  9
$MIRRTEXT
 70
     1
  9
$LTSCALE
 40
1.0
  9
$ATTMODE
 70
     1
  9
$TEXTSIZE
 40
3.5
  9
$TRACEWID
 40
1.0
  9
$TEXTSTYLE
  7
Standard
  9
$CLAYER
  8
0
  9
$CELTYPE
  6
ByLayer
  9
$CECOLOR
 62
   256
  9
$CELTSCALE
 40
1.0
  9
$DISPSILH
 70
     0
  9
$DIMSCALE
 40
1.0
  9
$DIMASZ
 40
3.5
  9
$DIMEXO
 40
1.0
  9
$DIMDLI
 40
3.75
  9
$DIMRND
 40
0.0
  9
$DIMDLE
 40
0.0
  9
$DIMEXE
 40
1.0
  9
$DIMTP
 40
0.0
  9
$DIMTM
 40
0.0
  9
$DIMTXT
 40
3.5
  9
$DIMCEN
 40
2.5
  9
$DIMTSZ
 40
0.0
  9
$DIMTOL
 70
     0
  9
$DIMLIM
 70
     0
  9
$DIMTIH
 70
     1
  9
$DIMTOH
 70
     1
  9
$DIMSE1
 70
     0
  9
$DIMSE2
 70
     0
  9
$DIMTAD
 70
     1
  9
$DIMZIN
 70
     0
  9
$DIMBLK
  1

  9
$DIMASO
 70
     1
  9
$DIMSHO
 70
     1
  9
$DIMPOST
  1

  9
$DIMAPOST
  1

  9
$DIMALT
 70
     0
  9
$DIMALTD
 70
     3
  9
$DIMALTF
 40
0.0393700787
  9
$DIMLFAC
 40
1.0
  9
$DIMTOFL
 70
     1
  9
$DIMTVP
 40
0.0
  9
$DIMTIX
 70
     0
  9
$DIMSOXD
 70
     0
  9
$DIMSAH
 70
     0
  9
$DIMBLK1
  1

  9
$DIMBLK2
  1

  9
$DIMSTYLE
  2
ISO-25
  9
$DIMCLRD
 70
     0
  9
$DIMCLRE
 70
     0
  9
$DIMCLRT
 70
     0
  9
$DIMTFAC
 40
1.0
  9
$DIMGAP
 40
1.524
  9
$DIMJUST
 70
     0
  9
$DIMSD1
 70
     0
  9
$DIMSD2
 70
     0
  9
$DIMTOLJ
 70
     0
  9
$DIMTZIN
 70
     0
  9
$DIMALTZ
 70
     0
  9
$DIMALTTZ
 70
     0
  9
$DIMUPT
 70
     0
  9
$DIMDEC
 70
     2
  9
$DIMTDEC
 70
     2
  9
$DIMALTU
 70
     2
  9
$DIMALTTD
 70
     3
  9
$DIMTXSTY
  7
Standard
  9
$DIMAUNIT
 70
     0
  9
$DIMADEC
 70
     2
  9
$DIMALTRND
 40
0.0
  9
$DIMAZIN
 70
     0
  9
$DIMDSEP
 70
    44
  9
$DIMATFIT
 70
     3
  9
$DIMFRAC
 70
     0
  9
$DIMLDRBLK
  1

  9
$DIMLUNIT
 70
     2
  9
$DIMLWD
 70
    -2
  9
$DIMLWE
 70
    -2
  9
$DIMTMOVE
 70
     0
  9
$LUNITS
 70
     2
  9
$LUPREC
 70
     2
  9
$SKETCHINC
 40
1.0
  9
$FILLETRAD
 40
10.0
  9
$AUNITS
 70
     0
  9
$AUPREC
 70
     2
  9
$MENU
  1
.
  9
$ELEVATION
 40
0.0
  9
$PELEVATION
 40
0.0
  9
$THICKNESS
 40
0.0
  9
$LIMCHECK
 70
     0
  9
$CHAMFERA
 40
0.0
  9
$CHAMFERB
 40
0.0
  9
$CHAMFERC
 40
0.0
  9
$CHAMFERD
 40
0.0
  9
$SKPOLY
 70
     0
  9
$TDCREATE
 40
2458985.690951736
  9
$TDUCREATE
 40
2458985.565951736
  9
$TDUPDATE
 40
2458985.690952025
  9
$TDUUPDATE
 40
2458985.565952025
  9
$TDINDWG
 40
0.0000000116
  9
$TDUSRTIMER
 40
0.0000000116
  9
$USRTIMER
 70
     1
  9
$ANGBASE
 50
0.0
  9
$ANGDIR
 70
     0
  9
$PDMODE
 70
     0
  9
$PDSIZE
 40
-1.0
  9
$PLINEWID
 40
0.0
  9
$SPLFRAME
 70
     0
  9
$SPLINETYPE
 70
     6
  9
$SPLINESEGS
 70
     8
  9
$HANDSEED
  5
CB
  9
$SURFTAB1
 70
     6
  9
$SURFTAB2
 70
     6
  9
$SURFTYPE
 70
     6
  9
$SURFU
 70
     6
  9
$SURFV
 70
     6
  9
$UCSBASE
  2

  9
$UCSNAME
  2

  9
$UCSORG
 10
0.0
 20
0.0
 30
0.0
  9
$UCSXDIR
 10
1.0
 20
0.0
 30
0.0
  9
$UCSYDIR
 10
0.0
 20
1.0
 30
0.0
  9
$UCSORTHOREF
  2

  9
$UCSORTHOVIEW
 70
     0
  9
$UCSORGTOP
 10
0.0
 20
0.0
 30
0.0
  9
$UCSORGBOTTOM
 10
0.0
 20
0.0
 30
0.0
  9
$UCSORGLEFT
 10
0.0
 20
0.0
 30
0.0
  9
$UCSORGRIGHT
 10
0.0
 20
0.0
 30
0.0
  9
$UCSORGFRONT
 10
0.0
 20
0.0
 30
0.0
  9
$UCSORGBACK
 10
0.0
 20
0.0
 30
0.0
  9
$PUCSBASE
  2

  9
$PUCSNAME
  2

  9
$PUCSORG
 10
0.0
 20
0.0
 30
0.0
  9
$PUCSXDIR
 10
1.0
 20
0.0
 30
0.0
  9
$PUCSYDIR
 10
0.0
 20
1.0
 30
0.0
  9
$PUCSORTHOREF
  2

  9
$PUCSORTHOVIEW
 70
     0
  9
$PUCSORGTOP
 10
0.0
 20
0.0
 30
0.0
  9
$PUCSORGBOTTOM
 10
0.0
 20
0.0
 30
0.0
  9
$PUCSORGLEFT
 10
0.0
 20
0.0
 30
0.0
  9
$PUCSORGRIGHT
 10
0.0
 20
0.0
 30
0.0
  9
$PUCSORGFRONT
 10
0.0
 20
0.0
 30
0.0
  9
$PUCSORGBACK
 10
0.0
 20
0.0
 30
0.0
  9
$USERI1
 70
     0
  9
$USERI2
 70
     0
  9
$USERI3
 70
     0
  9
$USERI4
 70
     0
  9
$USERI5
 70
     0
  9
$USERR1
 40
0.0
  9
$USERR2
 40
0.0
  9
$USERR3
 40
0.0
  9
$USERR4
 40
0.0
  9
$USERR5
 40
0.0
  9
$WORLDVIEW
 70
     1
  9
$SHADEDGE
 70
     3
  9
$SHADEDIF
 70
    70
  9
$TILEMODE
 70
     1
  9
$MAXACTVP
 70
    64
  9
$PINSBASE
 10
0.0
 20
0.0
 30
0.0
  9
$PLIMCHECK
 70
     0
  9
$PEXTMIN
 10
1.0000000000E+20
 20
1.0000000000E+20
 30
1.0000000000E+20
  9
$PEXTMAX
 10
-1.0000000000E+20
 20
-1.0000000000E+20
 30
-1.0000000000E+20
  9
$PLIMMIN
 10
0.0
 20
0.0
  9
$PLIMMAX
 10
420.0
 20
297.0
  9
$UNITMODE
 70
     0
  9
$VISRETAIN
 70
     1
  9
$PLINEGEN
 70
     0
  9
$PSLTSCALE
 70
     1
  9
$TREEDEPTH
 70
  3020
  9
$CMLSTYLE
  2
Standard
  9
$CMLJUST
 70
     0
  9
$CMLSCALE
 40
20.0
  9
$PROXYGRAPHICS
 70
     1
  9
$MEASUREMENT
 70
     1
  9
$CELWEIGHT
370
    -1
  9
$ENDCAPS
280
     0
  9
$JOINSTYLE
280
     0
  9
$LWDISPLAY
290
     1
  9
$INSUNITS
 70
     4
  9
$HYPERLINKBASE
  1

  9
$STYLESHEET
  1

  9
$XEDIT
290
     1
  9
$CEPSNTYPE
380
     0
  9
$PSTYLEMODE
290
     1
  9
$FINGERPRINTGUID
  2
{b288dc3c-88f5-4064-acf0-7572b45be964}
  9
$VERSIONGUID
  2
{FAEB1C32-E019-11D5-929B-00C0DF256EC4}
  9
$EXTNAMES
290
     1
  9
$PSVPSCALE
 40
0.0
  9
$OLESTARTUP
290
     0
  0
ENDSEC
  0
SECTION
  2
CLASSES
  0
CLASS
  1
ACDBDICTIONARYWDFLT
  2
AcDbDictionaryWithDefault
  3
ObjectDBX Classes
 90
        0
280
     0
281
     0
  0
CLASS
  1
VISUALSTYLE
  2
AcDbVisualStyle
  3
ObjectDBX Classes
 90
     4095
280
     0
281
     0
  0
CLASS
  1
MATERIAL
  2
AcDbMaterial
  3
ObjectDBX Classes
 90
     1153
280
     0
281
     0
  0
CLASS
  1
SCALE
  2
AcDbScale
  3
ObjectDBX Classes
 90
     1153
280
     0
281
     0
  0
CLASS
  1
TABLESTYLE
  2
AcDbTableStyle
  3
ObjectDBX Classes
 90
     4095
280
     0
281
     0
  0
CLASS
  1
MLEADERSTYLE
  2
AcDbMLeaderStyle
  3
ACDB_MLEADERSTYLE_CLASS
 90
     4095
280
     0
281
     0
  0
CLASS
  1
SUN
  2
AcDbSun
  3
SCENEOE
 90
     1153
280
     0
281
     0
  0
CLASS
  1
ACDBPLACEHOLDER
  2
AcDbPlaceHolder
  3
ObjectDBX Classes
 90
        0
280
     0
281
     0
  0
CLASS
  1
LAYOUT
  2
AcDbLayout
  3
ObjectDBX Classes
 90
        0
280
     0
281
     0
  0
ENDSEC
  0
SECTION
  2
TABLES
  0
TABLE
  2
VPORT
  5
8
330
0
100
AcDbSymbolTable
 70
     1
  0
VPORT
  5
29
330
8
100
AcDbSymbolTableRecord
100
AcDbViewportTableRecord
  2
*Active
 70
     0
 10
0.0
 20
0.0
 11
1.0
 21
1.0
 12
139.7
 22
107.95
 13
0.0
 23
0.0
 14
10.0
 24
10.0
 15
10.0
 25
10.0
 16
0.0
 26
0.0
 36
1.0
 17
0.0
 27
0.0
 37
0.0
 40
215.9
 41
1.2941176471
 42
50.0
 43
0.0
 44
0.0
 50
0.0
 51
0.0
 71
     0
 72
  2000
 73
     1
 74
     3
 75
     0
 76
     0
 77
     0
 78
     0
281
     0
 65
     1
110
0.0
120
0.0
130
0.0
111
1.0
121
0.0
131
0.0
112
0.0
122
1.0
132
0.0
 79
     0
146
0.0
  0
ENDTAB
  0
TABLE
  2
LTYPE
  5
5
330
0
100
AcDbSymbolTable
 70
     6
  0
LTYPE
  5
14
330
5
100
AcDbSymbolTableRecord
100
AcDbLinetypeTableRecord
  2
ByBlock
 70
     0
  3

 72
    65
 73
     0
 40
0.0
  0
LTYPE
  5
15
330
5
100
AcDbSymbolTableRecord
100
AcDbLinetypeTableRecord
  2
ByLayer
 70
     0
  3

 72
    65
 73
     0
 40
0.0
  0
LTYPE
  5
16
330
5
100
AcDbSymbolTableRecord
100
AcDbLinetypeTableRecord
  2
Continuous
 70
     0
  3
Solid line
 72
    65
 73
     0
 40
0.0
  0
LTYPE
  5
6E
330
5
100
AcDbSymbolTableRecord
100
AcDbLinetypeTableRecord
  2
HIDDEN
 70
     0
  3
Hidden __ __ __ __ __ __ __ __ __ __ __ __ __ __
 72
    65
 73
     2
 40
1.905
 49
1.27
 74
     0
 49
-0.635
 74
     0
  0
LTYPE
  5
6F
330
5
100
AcDbSymbolTableRecord
100
AcDbLinetypeTableRecord
  2
PHANTOM
 70
     0
  3
Phantom ______  __  __  ______  __  __  ______
 72
    65
 73
     6
 40
12.7
 49
6.35
 74
     0
 49
-1.27
 74
     0
 49
1.27
 74
     0
 49
-1.27
 74
     0
 49
1.27
 74
     0
 49
-1.27
 74
     0
  0
LTYPE
  5
70
330
5
100
AcDbSymbolTableRecord
100
AcDbLinetypeTableRecord
  2
CENTER
 70
     0
  3
Center ____ _ ____ _ ____ _ ____ _ ____ _ ____
 72
    65
 73
     4
 40
10.16
 49
6.35
 74
     0
 49
-1.27
 74
     0
 49
1.27
 74
     0
 49
-1.27
 74
     0
  0
LTYPE
  5
71
330
5
100
AcDbSymbolTableRecord
100
AcDbLinetypeTableRecord
  2
CENTERX2
 70
     0
  3
Center (2x) ________  __  ________  __  _____
 72
    65
 73
     4
 40
20.32
 49
12.7
 74
     0
 49
-2.54
 74
     0
 49
2.54
 74
     0
 49
-2.54
 74
     0
  0
LTYPE
  5
72
330
5
100
AcDbSymbolTableRecord
100
AcDbLinetypeTableRecord
  2
DOT2
 70
     0
  3
Dot (.5x) ........................................
 72
    65
 73
     2
 40
0.635
 49
0.0
 74
     0
 49
-0.635
 74
     0
  0
ENDTAB
  0
TABLE
  2
LAYER
  5
2
330
0
100
AcDbSymbolTable
 70
    17
  0
LAYER
  5
10
330
2
100
AcDbSymbolTableRecord
100
AcDbLayerTableRecord
  2
0
 70
     0
 62
     7
  6
Continuous
370
    -3
390
F
  0
LAYER
  5
73
330
2
100
AcDbSymbolTableRecord
100
AcDbLayerTableRecord
  2
FORMAT
 70
     0
 62
     7
  6
Continuous
370
    -3
390
F
  0
LAYER
  5
74
330
2
100
AcDbSymbolTableRecord
100
AcDbLayerTableRecord
  2
YARDIMCI_GEOMETRI
 70
     0
 62
    -6
  6
Continuous
290
     0
370
    -3
390
F
  0
LAYER
  5
75
330
2
100
AcDbSymbolTableRecord
100
AcDbLayerTableRecord
  2
SAYFA_CERCEVESI
 70
     0
 62
     7
  6
Continuous
370
    25
390
F
  0
LAYER
  5
76
330
2
100
AcDbSymbolTableRecord
100
AcDbLayerTableRecord
  2
ANTET
 70
     0
 62
     7
  6
Continuous
370
    -3
390
F
  0
LAYER
  5
77
330
2
100
AcDbSymbolTableRecord
100
AcDbLayerTableRecord
  2
OLCU
 70
     0
 62
   150
  6
Continuous
370
    -3
390
F
  0
LAYER
  5
78
330
2
100
AcDbSymbolTableRecord
100
AcDbLayerTableRecord
  2
METIN
 70
     0
 62
    96
  6
Continuous
370
    -3
390
F
  0
LAYER
  5
79
330
2
100
AcDbSymbolTableRecord
100
AcDbLayerTableRecord
  2
BALON
 70
     0
 62
     5
  6
Continuous
370
    -3
390
F
  0
LAYER
  5
7A
330
2
100
AcDbSymbolTableRecord
100
AcDbLayerTableRecord
  2
VURGU
 70
     0
 62
     7
  6
Continuous
370
    -3
390
F
  0
LAYER
  5
7B
330
2
100
AcDbSymbolTableRecord
100
AcDbLayerTableRecord
  2
SILIK
 70
     0
 62
     7
  6
Continuous
370
    -3
390
F
  0
LAYER
  5
7C
330
2
100
AcDbSymbolTableRecord
100
AcDbLayerTableRecord
  2
MODEL
 70
     0
 62
     7
  6
Continuous
370
    -3
390
F
  0
LAYER
  5
7D
330
2
100
AcDbSymbolTableRecord
100
AcDbLayerTableRecord
  2
DETAYLANDıRMA
 70
     0
 62
   190
  6
Continuous
370
    -3
390
F
  0
LAYER
  5
7E
330
2
100
AcDbSymbolTableRecord
100
AcDbLayerTableRecord
  2
TOLERANS
 70
     0
 62
   230
  6
Continuous
370
    -3
390
F
  0
LAYER
  5
7F
330
2
100
AcDbSymbolTableRecord
100
AcDbLayerTableRecord
  2
MERKEZ_CIZGILERI
 70
     0
 62
    30
  6
Continuous
370
    -3
390
F
  0
LAYER
  5
80
330
2
100
AcDbSymbolTableRecord
100
AcDbLayerTableRecord
  2
KESIT-DETAY_CIZGILERI
 70
     0
 62
     7
  6
Continuous
370
    -3
390
F
  0
LAYER
  5
81
330
2
100
AcDbSymbolTableRecord
100
AcDbLayerTableRecord
  2
\U+041E\U+0421\U+0415\U+0412\U+042B\U+0415
 70
     0
 62
     7
  6
Continuous
370
    -3
390
F
  0
LAYER
  5
82
330
2
100
AcDbSymbolTableRecord
100
AcDbLayerTableRecord
  2
\U+0412\U+041E\U+0414\U+042F\U+041D\U+042B\U+0415_\U+0417\U+041D\U+0410\U+041A\U+0418
 70
     0
 62
    11
  6
Continuous
370
    -3
390
F
  0
ENDTAB
  0
TABLE
  2
STYLE
  5
3
330
0
100
AcDbSymbolTable
 70
     1
  0
STYLE
  5
11
330
3
100
AcDbSymbolTableRecord
100
AcDbTextStyleTableRecord
  2
Standard
 70
     0
 40
0.0
 41
1.0
 50
0.0
 71
     0
 42
3.5
  3
txt
  4

  0
ENDTAB
  0
TABLE
  2
VIEW
  5
6
330
0
100
AcDbSymbolTable
 70
     0
  0
ENDTAB
  0
TABLE
  2
UCS
  5
7
330
0
100
AcDbSymbolTable
 70
     0
  0
ENDTAB
  0
TABLE
  2
APPID
  5
9
330
0
100
AcDbSymbolTable
 70
     1
  0
APPID
  5
12
330
9
100
AcDbSymbolTableRecord
100
AcDbRegAppTableRecord
  2
ACAD
 70
     0
  0
ENDTAB
  0
TABLE
  2
DIMSTYLE
  5
A
330
0
100
AcDbSymbolTable
 70
     1
100
AcDbDimStyleTable
  0
DIMSTYLE
105
27
330
A
100
AcDbSymbolTableRecord
100
AcDbDimStyleTableRecord
  2
ISO-25
 70
     0
 41
2.5
 42
0.625
 43
3.75
 44
1.25
 73
     0
 74
     0
 77
     1
 78
     8
140
2.5
141
2.5
143
0.0393700787
147
0.625
171
     3
172
     1
178
     0
271
     2
272
     2
274
     3
278
    44
283
     0
284
     8
340
11
  0
ENDTAB
  0
TABLE
  2
BLOCK_RECORD
  5
1
330
0
100
AcDbSymbolTable
 70
     3
  0
BLOCK_RECORD
  5
1F
330
1
100
AcDbSymbolTableRecord
100
AcDbBlockTableRecord
  2
*Model_Space
340
22
  0
BLOCK_RECORD
  5
1B
330
1
100
AcDbSymbolTableRecord
100
AcDbBlockTableRecord
  2
*Paper_Space
340
1E
  0
BLOCK_RECORD
  5
23
330
1
100
AcDbSymbolTableRecord
100
AcDbBlockTableRecord
  2
*Paper_Space0
340
26
  0
BLOCK_RECORD
  5
88
330
1
100
AcDbSymbolTableRecord
100
AcDbBlockTableRecord
  2
SW_CENTERMARKSYMBOL_0
340
0
102
{BLKREFS
331
93
102
}
  0
BLOCK_RECORD
  5
9C
330
1
100
AcDbSymbolTableRecord
100
AcDbBlockTableRecord
  2
SW_CENTERMARKSYMBOL_1
340
0
102
{BLKREFS
331
A7
102
}
  0
ENDTAB
  0
ENDSEC
  0
SECTION
  2
BLOCKS
  0
BLOCK
  5
20
330
1F
100
AcDbEntity
  8
0
100
AcDbBlockBegin
  2
*Model_Space
 70
     0
 10
0.0
 20
0.0
 30
0.0
  3
*Model_Space
  1

  0
ENDBLK
  5
21
330
1F
100
AcDbEntity
  8
0
100
AcDbBlockEnd
  0
BLOCK
  5
1C
330
1B
100
AcDbEntity
 67
     1
  8
0
100
AcDbBlockBegin
  2
*Paper_Space
 70
     0
 10
0.0
 20
0.0
 30
0.0
  3
*Paper_Space
  1

  0
ENDBLK
  5
1D
330
1B
100
AcDbEntity
 67
     1
  8
0
100
AcDbBlockEnd
  0
BLOCK
  5
24
330
23
100
AcDbEntity
  8
0
100
AcDbBlockBegin
  2
*Paper_Space0
 70
     0
 10
0.0
 20
0.0
 30
0.0
  3
*Paper_Space0
  1

  0
ENDBLK
  5
25
330
23
100
AcDbEntity
  8
0
100
AcDbBlockEnd
  0
BLOCK
  5
89
330
88
100
AcDbEntity
  8
0
100
AcDbBlockBegin
  2
SW_CENTERMARKSYMBOL_0
 70
     0
 10
0.0
 20
0.0
 30
0.0
  3
SW_CENTERMARKSYMBOL_0
  1

  0
LINE
  5
8B
330
88
100
AcDbEntity
  8
FORMAT
 62
     0
100
AcDbLine
 10
0.0
 20
0.0
 30
0.0
 11
2.5
 21
0.0
 31
0.0
  0
LINE
  5
8C
330
88
100
AcDbEntity
  8
FORMAT
 62
     0
100
AcDbLine
 10
0.0
 20
0.0
 30
0.0
 11
0.0
 21
2.5
 31
0.0
  0
LINE
  5
8D
330
88
100
AcDbEntity
  8
FORMAT
 62
     0
100
AcDbLine
 10
0.0
 20
0.0
 30
0.0
 11
-2.5
 21
0.0
 31
0.0
  0
LINE
  5
8E
330
88
100
AcDbEntity
  8
FORMAT
 62
     0
100
AcDbLine
 10
0.0
 20
0.0
 30
0.0
 11
0.0
 21
-2.5
 31
0.0
  0
LINE
  5
8F
330
88
100
AcDbEntity
  8
FORMAT
 62
     0
100
AcDbLine
 10
5.0
 20
0.0
 30
0.0
 11
102.5
 21
0.0
 31
0.0
  0
LINE
  5
90
330
88
100
AcDbEntity
  8
FORMAT
 62
     0
100
AcDbLine
 10
0.0
 20
5.0
 30
0.0
 11
0.0
 21
102.5
 31
0.0
  0
LINE
  5
91
330
88
100
AcDbEntity
  8
FORMAT
 62
     0
100
AcDbLine
 10
-5.0
 20
0.0
 30
0.0
 11
-102.5
 21
0.0
 31
0.0
  0
LINE
  5
92
330
88
100
AcDbEntity
  8
FORMAT
 62
     0
100
AcDbLine
 10
0.0
 20
-5.0
 30
0.0
 11
0.0
 21
-102.5
 31
0.0
  0
ENDBLK
  5
8A
330
88
100
AcDbEntity
  8
0
100
AcDbBlockEnd
  0
BLOCK
  5
9D
330
9C
100
AcDbEntity
  8
0
100
AcDbBlockBegin
  2
SW_CENTERMARKSYMBOL_1
 70
     0
 10
0.0
 20
0.0
 30
0.0
  3
SW_CENTERMARKSYMBOL_1
  1

  0
LINE
  5
9F
330
9C
100
AcDbEntity
  8
FORMAT
 62
     0
100
AcDbLine
 10
0.0
 20
0.0
 30
0.0
 11
0.0
 21
2.5
 31
0.0
  0
LINE
  5
A0
330
9C
100
AcDbEntity
  8
FORMAT
 62
     0
100
AcDbLine
 10
0.0
 20
0.0
 30
0.0
 11
-2.5
 21
0.0
 31
0.0
  0
LINE
  5
A1
330
9C
100
AcDbEntity
  8
FORMAT
 62
     0
100
AcDbLine
 10
0.0
 20
0.0
 30
0.0
 11
0.0
 21
-2.5
 31
0.0
  0
LINE
  5
A2
330
9C
100
AcDbEntity
  8
FORMAT
 62
     0
100
AcDbLine
 10
0.0
 20
0.0
 30
0.0
 11
2.5
 21
0.0
 31
0.0
  0
LINE
  5
A3
330
9C
100
AcDbEntity
  8
FORMAT
 62
     0
100
AcDbLine
 10
0.0
 20
5.0
 30
0.0
 11
0.0
 21
57.5
 31
0.0
  0
LINE
  5
A4
330
9C
100
AcDbEntity
  8
FORMAT
 62
     0
100
AcDbLine
 10
-5.0
 20
0.0
 30
0.0
 11
-57.5
 21
0.0
 31
0.0
  0
LINE
  5
A5
330
9C
100
AcDbEntity
  8
FORMAT
 62
     0
100
AcDbLine
 10
0.0
 20
-5.0
 30
0.0
 11
0.0
 21
-57.5
 31
0.0
  0
LINE
  5
A6
330
9C
100
AcDbEntity
  8
FORMAT
 62
     0
100
AcDbLine
 10
5.0
 20
0.0
 30
0.0
 11
57.5
 21
0.0
 31
0.0
  0
ENDBLK
  5
9E
330
9C
100
AcDbEntity
  8
0
100
AcDbBlockEnd
  0
ENDSEC
  0
SECTION
  2
ENTITIES
  0
LINE
  5
83
330
1F
100
AcDbEntity
  8
0
  6
Continuous
 62
     7
370
    25
100
AcDbLine
 10
80.5122969441
 20
93.2366442854
 30
0.0
 11
80.5122969441
 21
-34.1840791528
 31
0.0
  0
LINE
  5
84
330
1F
100
AcDbEntity
  8
0
  6
Continuous
 62
     7
370
    25
100
AcDbLine
 10
190.512296348
 20
-34.1840791528
 30
0.0
 11
190.512296348
 21
93.2860341842
 31
0.0
  0
CIRCLE
  5
85
330
1F
100
AcDbEntity
  8
0
  6
Continuous
 62
     7
370
    25
100
AcDbCircle
 10
135.5122966461
 20
176.8159163172
 30
0.0
 40
88.1
  0
CIRCLE
  5
86
330
1F
100
AcDbEntity
  8
0
  6
Continuous
 62
     7
370
    25
100
AcDbCircle
 10
135.5122966461
 20
176.8159163172
 30
0.0
 40
100.0
  0
LINE
  5
87
330
1F
100
AcDbEntity
  8
0
  6
Continuous
 62
     7
370
    25
100
AcDbLine
 10
190.512296348
 20
-34.1840791528
 30
0.0
 11
80.5122969441
 21
-34.1840791528
 31
0.0
  0
INSERT
  5
93
330
1F
100
AcDbEntity
  8
FORMAT
 62
     7
100
AcDbBlockReference
  2
SW_CENTERMARKSYMBOL_0
 10
135.5122966461
 20
176.8159163172
 30
0.0
  0
LINE
  5
94
330
1F
100
AcDbEntity
  8
0
  6
Continuous
 62
     7
370
    25
100
AcDbLine
 10
235.5122981362
 20
433.7131033468
 30
0.0
 11
235.5122981362
 21
914.7131095457
 31
0.0
  0
LINE
  5
95
330
1F
100
AcDbEntity
  8
0
  6
Continuous
 62
     7
370
    25
100
AcDbLine
 10
35.5122951559
 20
914.7131095457
 30
0.0
 11
35.5122951559
 21
433.7131033468
 31
0.0
  0
CIRCLE
  5
96
330
1F
100
AcDbEntity
  8
0
  6
Continuous
 62
     7
370
    25
100
AcDbCircle
 10
135.5122966461
 20
674.2131064463
 30
0.0
 40
48.39999999999998
  0
CIRCLE
  5
97
330
1F
100
AcDbEntity
  8
0
  6
Continuous
 62
     7
370
    25
100
AcDbCircle
 10
135.5122966461
 20
674.2131064463
 30
0.0
 40
55.0
  0
LINE
  5
98
330
1F
100
AcDbEntity
  8
0
  6
Continuous
 62
     7
370
    25
100
AcDbLine
 10
135.5122966461
 20
914.7131095457
 30
0.0
 11
235.5122981362
 21
914.7131095457
 31
0.0
  0
LINE
  5
99
330
1F
100
AcDbEntity
  8
0
  6
Continuous
 62
     7
370
    25
100
AcDbLine
 10
35.5122951559
 20
914.7131095457
 30
0.0
 11
135.5122966461
 21
914.7131095457
 31
0.0
  0
LINE
  5
9A
330
1F
100
AcDbEntity
  8
0
  6
Continuous
 62
     7
370
    25
100
AcDbLine
 10
135.5122966461
 20
433.7131033468
 30
0.0
 11
235.5122981362
 21
433.7131033468
 31
0.0
  0
LINE
  5
9B
330
1F
100
AcDbEntity
  8
0
  6
Continuous
 62
     7
370
    25
100
AcDbLine
 10
35.5122951559
 20
433.7131033468
 30
0.0
 11
135.5122966461
 21
433.7131033468
 31
0.0
  0
INSERT
  5
A7
330
1F
100
AcDbEntity
  8
FORMAT
100
AcDbBlockReference
  2
SW_CENTERMARKSYMBOL_1
 10
135.5122966461
 20
674.2131064463
 30
0.0
  0
LINE
  5
A8
330
1F
100
AcDbEntity
  8
0
  6
Continuous
 62
     7
370
    25
100
AcDbLine
 10
-216.6643156668
 20
276.8159178073
 30
0.0
 11
-697.6643218657
 21
276.8159178073
 31
0.0
  0
LINE
  5
A9
330
1F
100
AcDbEntity
  8
0
  6
Continuous
 62
     7
370
    25
100
AcDbLine
 10
-402.1818242034
 20
76.8159148271
 30
0.0
 11
-216.6643156668
 21
76.8159148271
 31
0.0
  0
LINE
  5
AA
330
1F
100
AcDbEntity
  8
0
  6
Continuous
 62
     7
370
    25
100
AcDbLine
 10
-697.6643218657
 20
76.8159148271
 30
0.0
 11
-512.1643184682
 21
76.8159148271
 31
0.0
  0
LINE
  5
AB
330
1F
100
AcDbEntity
  8
0
  6
Continuous
 62
     7
370
    25
100
AcDbLine
 10
-512.1643184682
 20
76.8159148271
 30
0.0
 11
-512.1643184682
 21
-34.1840791528
 31
0.0
  0
LINE
  5
AC
330
1F
100
AcDbEntity
  8
0
  6
Continuous
 62
     7
370
    25
100
AcDbLine
 10
-402.1643190643
 20
-34.1840791528
 30
0.0
 11
-402.1643190643
 21
76.8256452854
 31
0.0
  0
LWPOLYLINE
  5
AD
330
1F
100
AcDbEntity
  8
0
  6
Continuous
 62
     7
370
    25
100
AcDbPolyline
 90
       34
 70
   128
 43
0.0
 10
-402.1818242034
 20
76.825652736
 10
-402.3238657972
 20
76.9035783584
 10
-403.5269520244
 20
77.5588420208
 10
-404.5902094802
 20
78.129422384
 10
-405.9407985767
 20
78.842197078
 10
-409.440462943
 20
80.6256574566
 10
-414.0392518601
 20
82.8224536951
 10
-416.9289632699
 20
84.1127452428
 10
-420.0733467003
 20
85.433532017
 10
-423.5456041059
 20
86.7869299824
 10
-427.2548123261
 20
88.1052729661
 10
-431.3734485766
 20
89.4077164109
 10
-435.7148590496
 20
90.5890134151
 10
-440.4209195634
 20
91.6371014888
 10
-445.3057586214
 20
92.4617466505
 10
-449.6669536455
 20
92.9630515153
 10
-454.0957631542
 20
93.2430964882
 10
-458.7279624537
 20
93.2840746815
 10
-463.3445078505
 20
93.0710998352
 10
-470.9068206137
 20
92.1763521607
 10
-478.3012527039
 20
90.6662237818
 10
-485.4314937255
 20
88.6454400594
 10
-492.0436344108
 20
86.308639961
 10
-495.4460985026
 20
84.9437830026
 10
-498.5879934391
 20
83.5908097203
 10
-501.5258132478
 20
82.2488409455
 10
-504.1516586205
 20
80.988940316
 10
-506.4485049805
 20
79.8421320493
 10
-508.388226386
 20
78.8419959123
 10
-509.9965124389
 20
77.9917654569
 10
-511.174214538
 20
77.3570355947
 10
-511.9126825592
 20
76.9540932949
 10
-512.1643184682
 20
76.8159148271
 10
-512.1643184682
 20
76.8159148271
  0
LINE
  5
AE
330
1F
100
AcDbEntity
  8
0
  6
Continuous
 62
     7
370
    25
100
AcDbLine
 10
-697.6643218657
 20
76.8159148271
 30
0.0
 11
-697.6643218657
 21
276.8159178073
 31
0.0
  0
LINE
  5
AF
330
1F
100
AcDbEntity
  8
0
  6
Continuous
 62
     7
370
    25
100
AcDbLine
 10
-216.6643156668
 20
76.8159148271
 30
0.0
 11
-216.6643156668
 21
276.8159178073
 31
0.0
  0
LINE
  5
B0
330
1F
100
AcDbEntity
  8
0
  6
Continuous
 62
     7
370
    25
100
AcDbLine
 10
-402.1643190643
 20
-34.1840791528
 30
0.0
 11
-512.1643184682
 21
-34.1840791528
 31
0.0
  0
LINE
  5
B1
330
1F
100
AcDbEntity
  8
0
  6
Continuous
 62
     7
370
    25
100
AcDbLine
 10
687.0830264365
 20
76.8159148271
 30
0.0
 11
872.5830298339
 21
76.8159148271
 31
0.0
  0
LINE
  5
B2
330
1F
100
AcDbEntity
  8
0
  6
Continuous
 62
     7
370
    25
100
AcDbLine
 10
391.583023635
 20
76.8159148271
 30
0.0
 11
577.1008488213
 21
76.8159148271
 31
0.0
  0
LINE
  5
B3
330
1F
100
AcDbEntity
  8
0
  6
Continuous
 62
     7
370
    25
100
AcDbLine
 10
872.5830298339
 20
276.8159178073
 30
0.0
 11
391.583023635
 21
276.8159178073
 31
0.0
  0
LINE
  5
B4
330
1F
100
AcDbEntity
  8
0
  6
Continuous
 62
     7
370
    25
100
AcDbLine
 10
577.0830270325
 20
76.82570489
 30
0.0
 11
577.0830270325
 21
-34.1840791528
 31
0.0
  0
LINE
  5
B5
330
1F
100
AcDbEntity
  8
0
  6
Continuous
 62
     7
370
    25
100
AcDbLine
 10
687.0830264365
 20
-34.1840791528
 30
0.0
 11
687.0830264365
 21
76.8159148271
 31
0.0
  0
SPLINE
  5
B6
330
1F
100
AcDbEntity
  8
0
  6
Continuous
 62
     7
370
    25
100
AcDbSpline
210
0.0
220
0.0
230
1.0
 70
     8
 71
     3
 72
    41
 73
    37
 74
     0
 42
0.000000001
 43
0.00000001
 40
0.0
 40
0.0
 40
0.0
 40
0.0
 40
0.0238205159894479
 40
0.0478234370072143
 40
0.0723913725588381
 40
0.0971482042075569
 40
0.1448997046866907
 40
0.1938750206862246
 40
0.2193684084436606
 40
0.2450132338228365
 40
0.2711197411924482
 40
0.2973824433150982
 40
0.3252584499097789
 40
0.3533371076245606
 40
0.3821008514293645
 40
0.4111285670543496
 40
0.4370990753542852
 40
0.4633042523166498
 40
0.4903023313112289
 40
0.5175937227933657
 40
0.562020985523677
 40
0.6076980093465628
 40
0.6532452528150559
 40
0.6997855691088384
 40
0.7260611742362966
 40
0.7524966424931797
 40
0.7794334209103286
 40
0.806546567268694
 40
0.8344308111692371
 40
0.8625328824169729
 40
0.8913712202004703
 40
0.9204879472540197
 40
0.9457417902256404
 40
0.9712043764195959
 40
0.9973483318538532
 40
1.0
 40
1.0
 40
1.0
 40
1.0
 10
687.0830264364563
 20
76.8159148271116
 30
0.0
 10
687.0520211118547
 20
76.83298661258961
 30
0.0
 10
686.9897730401242
 20
76.86726091033235
 30
0.0
 10
686.4829148335834
 20
77.14520752576314
 30
0.0
 10
685.6648565825955
 20
77.58999043839508
 30
0.0
 10
684.1464324776333
 20
78.40479351216189
 30
0.0
 10
681.4913883313733
 20
79.79611971015225
 30
0.0
 10
677.9033291189031
 20
81.57497536805926
 30
0.0
 10
674.4555118482708
 20
83.17620042590164
 30
0.0
 10
671.5389570151789
 20
84.4620615927364
 30
0.0
 10
668.3470291776771
 20
85.7831446332418
 30
0.0
 10
664.8219518561395
 20
87.13354791631407
 30
0.0
 10
660.9687852642608
 20
88.47283969398339
 30
0.0
 10
656.7588976114398
 20
89.7636112762658
 30
0.0
 10
652.2656953144619
 20
90.93486787729826
 30
0.0
 10
647.6846085024576
 20
91.89491210564032
 30
0.0
 10
643.093545172097
 20
92.61586805668041
 30
0.0
 10
638.511660150677
 20
93.09537666585256
 30
0.0
 10
633.7857772739444
 20
93.32798792866268
 30
0.0
 10
627.968497872124
 20
93.27990442729485
 30
0.0
 10
621.1073262579724
 20
92.69932438544281
 30
0.0
 10
613.4946432996448
 20
91.35896161816322
 30
0.0
 10
606.2528098468273
 20
89.4808679486907
 30
0.0
 10
600.5476565423559
 20
87.58462339156448
 30
0.0
 10
596.1578042086586
 20
85.91810369904766
 30
0.0
 10
592.8743739918347
 20
84.56858543966558
 30
0.0
 10
589.8173301533124
 20
83.22585741618381
 30
0.0
 10
586.9912028440178
 20
81.91385336740343
 30
0.0
 10
584.4394345493173
 20
80.67300526621361
 30
0.0
 10
582.1845430824908
 20
79.53388495257673
 30
0.0
 10
580.281273415918
 20
78.5421975270863
 30
0.0
 10
578.847933811818
 20
77.777341496206
 30
0.0
 10
577.8454805689952
 20
77.23387479061165
 30
0.0
 10
577.2761340999316
 20
76.92220436920677
 30
0.0
 10
577.0317941118681
 20
76.78775387436579
 30
0.0
 10
577.0950260568086
 20
76.82251164348547
 30
0.0
 10
577.1008488212906
 20
76.82571234059655
 30
0.0
  0
LINE
  5
B7
330
1F
100
AcDbEntity
  8
0
  6
Continuous
 62
     7
370
    25
100
AcDbLine
 10
872.5830298339
 20
276.8159178073
 30
0.0
 11
872.5830298339
 21
76.8159148271
 31
0.0
  0
LINE
  5
B8
330
1F
100
AcDbEntity
  8
0
  6
Continuous
 62
     7
370
    25
100
AcDbLine
 10
391.583023635
 20
276.8159178073
 30
0.0
 11
391.583023635
 21
76.8159148271
 31
0.0
  0
LINE
  5
B9
330
1F
100
AcDbEntity
  8
0
  6
Continuous
 62
     7
370
    25
100
AcDbLine
 10
687.0830264365
 20
-34.1840791528
 30
0.0
 11
577.0830270325
 21
-34.1840791528
 31
0.0
  0
LINE
  5
BA
330
1F
100
AcDbEntity
  8
0
  6
Continuous
 62
     7
370
    25
100
AcDbLine
 10
35.5122951559
 20
-182.559062403
 30
0.0
 11
35.5122951559
 21
-663.5590686019
 31
0.0
  0
LINE
  5
BB
330
1F
100
AcDbEntity
  8
0
  6
Continuous
 62
     7
370
    25
100
AcDbLine
 10
235.5122981362
 20
-663.5590686019
 30
0.0
 11
235.5122981362
 21
-182.559062403
 31
0.0
  0
LINE
  5
BC
330
1F
100
AcDbEntity
  8
0
  6
Continuous
 62
     7
370
    25
100
AcDbLine
 10
235.5122981362
 20
-663.5590686019
 30
0.0
 11
35.5122951559
 21
-663.5590686019
 31
0.0
  0
LINE
  5
BD
330
1F
100
AcDbEntity
  8
0
  6
Continuous
 62
     7
370
    25
100
AcDbLine
 10
235.5122981362
 20
-182.559062403
 30
0.0
 11
35.5122951559
 21
-182.559062403
 31
0.0
  0
LINE
  5
BE
330
1F
100
AcDbEntity
  8
0
  6
Continuous
 62
     7
370
    25
100
AcDbLine
 10
823.7687586344
 20
-349.6740406426
 30
0.0
 11
483.6503925004
 21
-153.3278872188
 31
0.0
  0
LINE
  5
BF
330
1F
100
AcDbEntity
  8
0
  6
Continuous
 62
     7
370
    25
100
AcDbLine
 10
383.6585222316
 20
-326.5376606678
 30
0.0
 11
548.7136419143
 21
-421.8219530775
 31
0.0
  0
LINE
  5
C0
330
1F
100
AcDbEntity
  8
0
  6
Continuous
 62
     7
370
    25
100
AcDbLine
 10
658.713639281
 20
-485.3235998867
 30
0.0
 11
723.7768883656
 21
-522.8838140916
 31
0.0
  0
LINE
  5
C1
330
1F
100
AcDbEntity
  8
0
  6
Continuous
 62
     7
370
    25
100
AcDbLine
 10
548.713641585
 20
-413.3311927079
 30
0.0
 11
548.713641585
 21
-510.3959582642
 31
0.0
  0
LINE
  5
C2
330
1F
100
AcDbEntity
  8
0
  6
Continuous
 62
     7
370
    25
100
AcDbLine
 10
658.713639281
 20
-510.3959582642
 30
0.0
 11
658.713639281
 21
-413.3300611391
 31
0.0
  0
SPLINE
  5
C3
330
1F
100
AcDbEntity
  8
0
  6
Continuous
 62
     7
370
    25
100
AcDbSpline
210
0.0
220
0.0
230
1.0
 70
     8
 71
     3
 72
    16
 73
    12
 74
     0
 42
0.000000001
 43
0.00000001
 40
0.0
 40
0.0
 40
0.0
 40
0.0
 40
0.0954429883627081
 40
0.1927463377923809
 40
0.2900536218547518
 40
0.3892481983279442
 40
0.580576795347032
 40
0.7768089221856835
 40
0.8789546990503337
 40
0.9817072494700062
 40
1.0
 40
1.0
 40
1.0
 40
1.0
 10
564.8227676784899
 20
-397.3087101070553
 30
0.0
 10
563.8533134448522
 20
-397.8797378429479
 30
0.0
 10
561.8955085144274
 20
-399.0329237056214
 30
0.0
 10
559.2663682160976
 20
-400.7384313992573
 30
0.0
 10
556.8638860939753
 20
-402.4307021750633
 30
0.0
 10
554.0896868293489
 20
-404.6046339325342
 30
0.0
 10
551.3573494266551
 20
-407.2156224772419
 30
0.0
 10
549.6312652758492
 20
-409.6813146360726
 30
0.0
 10
548.9128828447062
 20
-411.6193489904916
 30
0.0
 10
548.6775527152622
 20
-412.6790370004081
 30
0.0
 10
548.7311167795788
 20
-413.2452413722802
 30
0.0
 10
548.7392115511909
 20
-413.3308079762077
 30
0.0
  0
SPLINE
  5
C4
330
1F
100
AcDbEntity
  8
0
  6
Continuous
 62
     7
370
    25
100
AcDbSpline
210
0.0
220
0.0
230
1.0
 70
     8
 71
     3
 72
    32
 73
    28
 74
     0
 42
0.000000001
 43
0.00000001
 40
0.0
 40
0.0
 40
0.0
 40
0.0
 40
0.0196129424673413
 40
0.0552322629605335
 40
0.0910772962690538
 40
0.1283175278963278
 40
0.165844387093894
 40
0.2043560313041473
 40
0.2432522756981285
 40
0.2767622056347078
 40
0.3110667228587243
 40
0.3453699805078263
 40
0.3805240084504117
 40
0.4389729259480032
 40
0.4989455910658834
 40
0.5611351323868027
 40
0.6246796989194837
 40
0.6604981738244826
 40
0.6965440702264433
 40
0.7333164852037777
 40
0.770349989741828
 40
0.8071874211721932
 40
0.8443227547212632
 40
0.8824667811834402
 40
0.9209913318290789
 40
0.9602666589843089
 40
1.0
 40
1.0
 40
1.0
 40
1.0
 10
658.6695220673179
 20
-413.3301858347597
 30
0.0
 10
658.6757690610342
 20
-412.6488690584906
 30
0.0
 10
658.693361301476
 20
-410.7302040030573
 30
0.0
 10
658.3173136182133
 20
-407.5681642364676
 30
0.0
 10
657.5561177412211
 20
-403.8465423195594
 30
0.0
 10
656.3696636459018
 20
-400.155997742621
 30
0.0
 10
654.7467051069236
 20
-396.5297414346456
 30
0.0
 10
652.6739279292082
 20
-393.065276308616
 30
0.0
 10
650.2620890444404
 20
-389.9929468069603
 30
0.0
 10
647.5846634620016
 20
-387.3347632915084
 30
0.0
 10
644.7168693870669
 20
-385.0970144010113
 30
0.0
 10
641.5165152859346
 20
-383.1644262425643
 30
0.0
 10
637.2500408724844
 20
-381.2400019567256
 30
0.0
 10
631.6746572232024
 20
-379.6809291249608
 30
0.0
 10
624.6391142401
 20
-378.9259412704649
 30
0.0
 10
617.0666607929679
 20
-379.1596083647109
 30
0.0
 10
610.2964705756581
 20
-380.123565091549
 30
0.0
 10
604.5748458496978
 20
-381.3403763350509
 30
0.0
 10
599.9738159056928
 20
-382.5267390775593
 30
0.0
 10
595.3340268170018
 20
-383.9143079909266
 30
0.0
 10
590.6991918879787
 20
-385.4768701817978
 30
0.0
 10
586.116892649283
 20
-387.1837814717226
 30
0.0
 10
581.5910407003107
 20
-389.0222433890635
 30
0.0
 10
577.1391882346254
 20
-390.979270987414
 30
0.0
 10
572.8046192594114
 20
-393.0373970088232
 30
0.0
 10
568.6343814440394
 20
-395.1614982469191
 30
0.0
 10
566.098206342566
 20
-396.5902120653247
 30
0.0
 10
564.8227676784899
 20
-397.3087101070553
 30
0.0
  0
LWPOLYLINE
  5
C5
330
1F
100
AcDbEntity
  8
0
  6
Continuous
 62
     7
370
    25
100
AcDbPolyline
 90
      107
 70
   128
 43
0.0
 10
433.654457366
 20
-321.5868563486
 10
437.8434023465
 20
-319.0252248347
 10
442.017633467
 20
-316.1857762145
 10
446.1624882341
 20
-313.0784837239
 10
450.2634095214
 20
-309.7142696661
 10
454.3059890337
 20
-306.1049438186
 10
458.2760298684
 20
-302.2631855678
 10
462.1595880042
 20
-298.2024895403
 10
465.943021033
 20
-293.9371131352
 10
469.6130368924
 20
-289.4820544754
 10
473.1567491835
 20
-284.8529474687
 10
476.5617061469
 20
-280.066057248
 10
479.8159512483
 20
-275.1381965258
 10
482.9080547893
 20
-270.0866708442
 10
485.8271507855
 20
-264.9292329503
 10
488.562987016
 20
-259.6839991499
 10
491.1059539994
 20
-254.3693839107
 10
493.4471218721
 20
-249.0040603217
 10
495.5782667304
 20
-243.6068749233
 10
497.4919022402
 20
-238.1967807903
 10
499.1813059792
 20
-232.7927858222
 10
500.6405457784
 20
-227.4138675745
 10
501.8644955276
 20
-222.0789245897
 10
502.8488509796
 20
-216.8066957907
 10
503.5901613613
 20
-211.6156958436
 10
504.0858188365
 20
-206.5241619248
 10
504.3340795793
 20
-201.5499786271
 10
504.3340795793
 20
-196.7106144624
 10
504.0858188365
 20
-192.0230669171
 10
503.5901613613
 20
-187.5038069379
 10
502.8488509796
 20
-183.1687057393
 10
501.8644955276
 20
-179.0329895538
 10
500.6405457784
 20
-175.1111888698
 10
499.1813059792
 20
-171.4170730323
 10
497.4919022402
 20
-167.9636221028
 10
495.5782667304
 20
-164.7629645002
 10
493.4471218721
 20
-161.8263465805
 10
491.1059539994
 20
-159.1640778812
 10
488.562987016
 20
-156.7855098255
 10
485.8271507855
 20
-154.6990053015
 10
482.9080547893
 20
-152.9118839055
 10
479.8159512483
 20
-151.4304249814
 10
476.5617061469
 20
-150.2598356775
 10
473.1567491835
 20
-149.404225087
 10
469.6130368924
 20
-148.866601202
 10
465.943021033
 20
-148.6488526598
 10
462.1595880042
 20
-148.7517350487
 10
458.2760298684
 20
-149.1748998031
 10
454.3059890337
 20
-149.9168531331
 10
450.2634095214
 20
-150.9749902407
 10
446.1624882341
 20
-152.3455991177
 10
442.017633467
 20
-154.0238540779
 10
437.8434023465
 20
-156.0038701244
 10
433.654457366
 20
-158.278691538
 10
429.4655123856
 20
-160.840323052
 10
425.2912812651
 20
-163.6797716721
 10
421.146426498
 20
-166.7870641627
 10
417.0455052106
 20
-170.1512782205
 10
413.0029256983
 20
-173.7606040681
 10
409.0328848636
 20
-177.6023623189
 10
405.1493267278
 20
-181.6630583463
 10
401.3658936991
 20
-185.9284347514
 10
397.6958778396
 20
-190.3834934112
 10
394.1521655485
 20
-195.0126004179
 10
390.7472085852
 20
-199.7994906387
 10
387.4929634838
 20
-204.7273513608
 10
384.4008599428
 20
-209.7788770424
 10
381.4817639466
 20
-214.9363149364
 10
378.745927716
 20
-220.1815487368
 10
376.2029607326
 20
-225.4961639759
 10
373.8617928599
 20
-230.861487565
 10
371.7306480016
 20
-236.2586729634
 10
369.8170124919
 20
-241.6687670964
 10
368.1276087529
 20
-247.0727620644
 10
366.6683689536
 20
-252.4516803122
 10
365.4444192045
 20
-257.7866232969
 10
364.4600637524
 20
-263.058852096
 10
363.7187533707
 20
-268.249852043
 10
363.2230958955
 20
-273.3413859618
 10
362.9748351527
 20
-278.3155692596
 10
362.9748351527
 20
-283.1549334243
 10
363.2230958955
 20
-287.8424809696
 10
363.7187533707
 20
-292.3617409487
 10
364.4600637524
 20
-296.6968421474
 10
365.4444192045
 20
-300.8325583328
 10
366.6683689536
 20
-304.7543590168
 10
368.1276087529
 20
-308.4484748544
 10
369.8170124919
 20
-311.9019257838
 10
371.7306480016
 20
-315.1025833864
 10
373.8617928599
 20
-318.0392013061
 10
376.2029607326
 20
-320.7014700055
 10
378.745927716
 20
-323.0800380611
 10
381.4817639466
 20
-325.1665425852
 10
384.4008599428
 20
-326.9536639811
 10
387.4929634838
 20
-328.4351229053
 10
390.7472085852
 20
-329.6057122091
 10
394.1521655485
 20
-330.4613227997
 10
397.6958778396
 20
-330.9989466847
 10
401.3658936991
 20
-331.2166952269
 10
405.1493267278
 20
-331.1138128379
 10
409.0328848636
 20
-330.6906480835
 10
413.0029256983
 20
-329.9486947535
 10
417.0455052106
 20
-328.890557646
 10
421.146426498
 20
-327.519948769
 10
425.2912812651
 20
-325.8416938087
 10
429.4655123856
 20
-323.8616777623
 10
433.654457366
 20
-321.5868563486
  0
LWPOLYLINE
  5
C6
330
1F
100
AcDbEntity
  8
0
  6
Continuous
 62
     7
370
    25
100
AcDbPolyline
 90
       41
 70
   128
 43
0.0
 10
773.7728235
 20
-517.9330097724
 10
777.9617684805
 20
-515.3713782584
 10
782.135999601
 20
-512.5319296383
 10
786.2808543681
 20
-509.4246371477
 10
790.3817756554
 20
-506.0604230899
 10
794.4243551677
 20
-502.4510972423
 10
798.3943960024
 20
-498.6093389915
 10
802.2779541382
 20
-494.5486429641
 10
806.061387167
 20
-490.283266559
 10
809.7314030264
 20
-485.8282078992
 10
813.2751153175
 20
-481.1991008925
 10
816.6800722809
 20
-476.4122106718
 10
819.9343173823
 20
-471.4843499496
 10
823.0264209233
 20
-466.432824268
 10
825.9455169195
 20
-461.275386374
 10
828.68135315
 20
-456.0301525736
 10
831.2243201334
 20
-450.7155373345
 10
833.5654880061
 20
-445.3502137454
 10
835.6966328644
 20
-439.9530283471
 10
837.6102683742
 20
-434.542934214
 10
839.2996721132
 20
-429.138939246
 10
840.7589119125
 20
-423.7600209982
 10
841.9828616616
 20
-418.4250780135
 10
842.9672171136
 20
-413.1528492145
 10
843.7085274953
 20
-407.9618492674
 10
844.2041849705
 20
-402.8703153486
 10
844.4524457133
 20
-397.8961320508
 10
844.4524457133
 20
-393.0567678861
 10
844.2041849705
 20
-388.3692203408
 10
843.7085274953
 20
-383.8499603617
 10
842.9672171136
 20
-379.5148591631
 10
841.9828616616
 20
-375.3791429776
 10
840.7589119125
 20
-371.4573422936
 10
839.2996721132
 20
-367.7632264561
 10
837.6102683742
 20
-364.3097755266
 10
835.6966328644
 20
-361.109117924
 10
833.5654880061
 20
-358.1725000043
 10
831.2243201334
 20
-355.5102313049
 10
828.68135315
 20
-353.1316632493
 10
825.9455169195
 20
-351.0451587252
 10
823.7687586344
 20
-349.6740406426
  0
LWPOLYLINE
  5
C7
330
1F
100
AcDbEntity
  8
0
  6
Continuous
 62
     7
370
    25
100
AcDbPolyline
 90
       15
 70
   128
 43
0.0
 10
723.7768883656
 20
-522.8838140916
 10
724.5192260768
 20
-523.2998174049
 10
727.6113296178
 20
-524.781276329
 10
730.8655747192
 20
-525.9518656329
 10
734.2705316825
 20
-526.8074762234
 10
737.8142439737
 20
-527.3451001084
 10
741.4842598331
 20
-527.5628486506
 10
745.2676928618
 20
-527.4599662617
 10
749.1512509976
 20
-527.0368015073
 10
753.1212918323
 20
-526.2948481773
 10
757.1638713446
 20
-525.2367110698
 10
761.264792632
 20
-523.8661021927
 10
765.4096473991
 20
-522.1878472325
 10
769.5838785196
 20
-520.2078311861
 10
773.7728235
 20
-517.9330097724
  0
LWPOLYLINE
  5
C8
330
1F
100
AcDbEntity
  8
0
  6
Continuous
 62
     7
370
    25
100
AcDbPolyline
 90
      100
 70
   128
 43
0.0
 10
433.654457366
 20
-311.8700204633
 10
437.6055205944
 20
-309.4442854915
 10
441.5406747045
 20
-306.7386553365
 10
445.4440728107
 20
-303.7640181499
 10
449.299999736
 20
-300.532360204
 10
453.0929263424
 20
-297.0566858582
 10
456.8075809827
 20
-293.3509945618
 10
460.4290067942
 20
-289.4302051933
 10
463.9426209671
 20
-285.310103594
 10
467.3342753314
 20
-281.0072893413
 10
470.590314308
 20
-276.5390814564
 10
473.6976223247
 20
-271.9234727819
 10
476.6436923039
 20
-267.179047857
 10
479.4166625422
 20
-262.3249129595
 10
482.0053588562
 20
-257.3806139789
 10
484.3993683403
 20
-252.3660573358
 10
486.5890446344
 20
-247.3014339357
 10
488.5655685105
 20
-242.2071446494
 10
490.3209900193
 20
-237.1036938525
 10
491.8482337587
 20
-232.011634672
 10
493.141151557
 20
-226.9514701315
 10
494.1945330102
 20
-221.9435801476
 10
495.0041476283
 20
-217.0081234341
 10
495.5667237622
 20
-212.164978184
 10
495.8800065556
 20
-207.4336409334
 10
495.9427210662
 20
-202.8331709489
 10
495.754630218
 20
-198.3820834835
 10
495.3164821176
 20
-194.0983069954
 10
494.6300416642
 20
-189.9990905645
 10
493.6980694765
 20
-186.1009418179
 10
492.5243324291
 20
-182.4195494583
 10
491.1135404321
 20
-178.9697475171
 10
489.4713833103
 20
-175.7654195385
 10
487.6044675821
 20
-172.8194727187
 10
485.52031646
 20
-170.1437679428
 10
483.2273224351
 20
-167.749074153
 10
480.7347156673
 20
-165.6450409684
 10
478.0525323749
 20
-163.8401408873
 10
475.1915700537
 20
-162.3416403855
 10
472.1633558667
 20
-161.1555664525
 10
468.9800807898
 20
-160.2867020228
 10
465.6545600992
 20
-159.7385449074
 10
462.200185956
 20
-159.5132986634
 10
458.6308694544
 20
-159.6118817144
 10
454.9609813526
 20
-160.0338824774
 10
451.2052993894
 20
-160.7776080278
 10
447.3789463809
 20
-161.8400650818
 10
443.4973289758
 20
-163.2169710172
 10
439.5760790451
 20
-164.9027877091
 10
435.630984041
 20
-166.890719146
 10
431.6779306911
 20
-169.1727682701
 10
427.7328356869
 20
-171.7397465709
 10
423.8115857563
 20
-174.5813086811
 10
419.9299683512
 20
-177.6860228076
 10
416.1036153426
 20
-181.0413789015
 10
412.3479333794
 20
-184.6338714468
 10
408.6780452776
 20
-188.4490332956
 10
405.108728776
 20
-192.4714953585
 10
401.6543546328
 20
-196.6850770941
 10
398.3288339422
 20
-201.0727986715
 10
395.1455588654
 20
-205.6169942733
 10
392.1173446783
 20
-210.2993698857
 10
389.2563823571
 20
-215.1010671731
 10
386.5741990647
 20
-220.0027501667
 10
384.0815922969
 20
-224.9846858675
 10
381.7885982721
 20
-230.0268142062
 10
379.7044471499
 20
-235.108828648
 10
377.8375314217
 20
-240.2102704866
 10
376.1953742999
 20
-245.3105927206
 10
374.784582303
 20
-250.3892604302
 10
373.6108452555
 20
-255.4258207391
 10
372.6788730678
 20
-260.4000016697
 10
371.9924326145
 20
-265.2917653782
 10
371.5542845141
 20
-270.0814168952
 10
371.3661936659
 20
-274.7496694314
 10
371.4289081764
 20
-279.2777307832
 10
371.7421909698
 20
-283.6473594199
 10
372.3047671037
 20
-287.8409680915
 10
373.1143817218
 20
-291.8416636639
 10
374.167763175
 20
-295.6333453096
 10
375.4606809734
 20
-299.2007387347
 10
376.9879247127
 20
-302.529479827
 10
378.7433462215
 20
-305.6061640907
 10
380.7198700977
 20
-308.4184074843
 10
382.9095463918
 20
-310.9548844484
 10
385.3035558758
 20
-313.205376576
 10
387.8922521899
 20
-315.1608304118
 10
390.6652224281
 20
-316.8133620203
 10
393.6112924074
 20
-318.1563269492
 10
396.718600424
 20
-319.1843141524
 10
399.9746394006
 20
-319.8931794547
 10
403.3662937649
 20
-320.2800729312
 10
406.8799079378
 20
-320.3434419564
 10
410.5013337493
 20
-320.0830220825
 10
414.2159883896
 20
-319.4998644218
 10
418.008914996
 20
-318.5963189222
 10
421.8648419213
 20
-317.3760184028
 10
425.7682400275
 20
-315.8438880653
 10
429.7033941376
 20
-314.0060859943
 10
433.654457366
 20
-311.8700204633
  0
LWPOLYLINE
  5
C9
330
1F
100
AcDbEntity
  8
0
  6
Continuous
 62
     7
370
    25
100
AcDbPolyline
 90
       74
 70
   128
 43
0.0
 10
637.937608457
 20
-530.1530344633
 10
640.7529741443
 20
-528.3814843715
 10
643.294113996
 20
-526.4767760574
 10
645.5422130661
 20
-524.4530102033
 10
647.4806256545
 20
-522.3251702457
 10
649.0950080031
 20
-520.1090123158
 10
650.3733983096
 20
-517.8209399738
 10
651.3063372407
 20
-515.4778981414
 10
651.8869192985
 20
-513.0972309186
 10
652.1108402363
 20
-510.6965629703
 10
651.9764444731
 20
-508.29367179
 10
651.4847277282
 20
-505.9063432345
 10
650.6393330699
 20
-503.5522551927
 10
649.4465179881
 20
-501.2488338812
 10
647.9151096132
 20
-499.0131367518
 10
646.0564480819
 20
-496.86171335
 10
643.8842996084
 20
-494.8104912635
 10
641.4147395935
 20
-492.8746599805
 10
638.6660510437
 20
-491.0685514219
 10
635.658589899
 20
-489.4055348237
 10
632.4146192444
 20
-487.897924071
 10
628.9581571858
 20
-486.5568807548
 10
625.3147913056
 20
-485.392334431
 10
621.5115011842
 20
-484.4129044963
 10
617.5764382825
 20
-483.6258461081
 10
613.5387451705
 20
-483.0369823252
 10
609.4283065979
 20
-482.6506759743
 10
605.2755578578
 20
-482.4697859314
 10
601.1112463932
 20
-482.4956511538
 10
596.9662039409
 20
-482.7280807965
 10
592.8711147238
 20
-483.165352691
 10
588.856300765
 20
-483.8042323537
 10
584.9514861296
 20
-484.639987433
 10
581.1855776288
 20
-485.666429147
 10
577.5864606711
 20
-486.8759601853
 10
574.1807796381
 20
-488.2596254618
 10
570.9937505282
 20
-489.8071807349
 10
568.0489673449
 20
-491.5071678814
 10
565.3682325212
 20
-493.3470006246
 10
562.9713942592
 20
-495.3130584362
 10
560.8761980286
 20
-497.3907844302
 10
559.0981561744
 20
-499.5647971326
 10
557.6504290502
 20
-501.8189986396
 10
556.543737102
 20
-504.1367014043
 10
555.7862778919
 20
-506.5007460893
 10
555.3836543164
 20
-508.893628163
 10
555.3388495823
 20
-511.2976340008
 10
555.6521942788
 20
-513.6949648199
 10
556.3213690122
 20
-516.0678704991
 10
557.3414215278
 20
-518.3987811179
 10
558.7047943689
 20
-520.6704445773
 10
560.4014006092
 20
-522.8660372298
 10
562.4186725853
 20
-524.9693075832
 10
564.7416794469
 20
-526.9646806569
 10
567.3532208345
 20
-528.8373850541
 10
570.2339622108
 20
-530.5735554175
 10
573.3625729898
 20
-532.1603395417
 10
576.715894466
 20
-533.5859861925
 10
580.2691003348
 20
-534.8399408151
 10
583.9958787795
 20
-535.9129232781
 10
587.8686394196
 20
-536.796986515
 10
591.8587144953
 20
-537.4855840046
 10
595.9365564318
 20
-537.9736199527
 10
600.0719788659
 20
-538.2574819873
 10
604.234359478
 20
-538.33506701
 10
608.3928889218
 20
-538.2058002041
 10
612.5167723391
 20
-537.8706373163
 10
616.5754796063
 20
-537.3320631353
 10
620.5389666061
 20
-536.5940641201
 10
624.3778806926
 20
-535.6621010276
 10
628.0638069873
 20
-534.5430792594
 10
631.5694521132
 20
-533.2452792906
 10
634.8688611848
 20
-531.7783104796
 10
637.937608457
 20
-530.1530344633
  0
LWPOLYLINE
  5
CA
330
1F
100
AcDbEntity
  8
0
  6
Continuous
 62
     7
370
    25
100
AcDbPolyline
 90
       79
 70
   128
 43
0.0
 10
642.6045131875
 20
-532.8471812177
 10
645.6078169407
 20
-530.9678058885
 10
648.3394223521
 20
-528.9550145818
 10
650.7816116109
 20
-526.821860993
 10
652.9185463924
 20
-524.582178165
 10
654.7363689447
 20
-522.2504927605
 10
656.2232886867
 20
-519.8419264076
 10
657.3696632099
 20
-517.3720972358
 10
658.1680588637
 20
-514.8570271151
 10
658.6132955372
 20
-512.3130245632
 10
658.7024888054
 20
-509.7565904636
 10
658.4350565149
 20
-507.2043017339
 10
657.8127359061
 20
-504.6727117212
 10
656.8395612227
 20
-502.1782399526
 10
655.5218439553
 20
-499.7370634072
 10
653.8681320115
 20
-497.36501387
 10
651.8891471546
 20
-495.077474906
 10
649.5977270511
 20
-492.8892814954
 10
647.0087310993
 20
-490.8146261317
 10
644.1389490561
 20
-488.866963494
 10
641.0069940235
 20
-487.0589243388
 10
637.6331778189
 20
-485.4022344289
 10
634.0393799252
 20
-483.9076388793
 10
630.2489070557
 20
-482.5848302104
 10
626.2863439938
 20
-481.44238657
 10
622.1773884635
 20
-480.4877189856
 10
617.9486884682
 20
-479.7270169991
 10
613.6276684354
 20
-479.1652152127
 10
609.242350751
 20
-478.8059571722
 10
604.8211779524
 20
-478.6515717971
 10
600.3928243844
 20
-478.7030619748
 10
595.9860052218
 20
-478.9600916354
 10
591.6293039305
 20
-479.4209956358
 10
587.3509707527
 20
-480.0827835614
 10
583.1787593882
 20
-480.9411640574
 10
579.1397241625
 20
-481.9905706795
 10
575.2600593418
 20
-483.2241968704
 10
571.5649285705
 20
-484.6340427201
 10
568.0782939782
 20
-486.2109649584
 10
564.8227676785
 20
-487.9447353107
 10
561.8194639253
 20
-489.82411064
 10
559.087858514
 20
-491.8369019466
 10
556.6456692552
 20
-493.9700555354
 10
554.5087344736
 20
-496.2097383634
 10
552.6909119214
 20
-498.5414237679
 10
551.2039921793
 20
-500.9499901209
 10
550.0576176562
 20
-503.4198192926
 10
549.2592220023
 20
-505.9348894133
 10
548.8139853288
 20
-508.4788919652
 10
548.7247920606
 20
-511.0353260648
 10
548.9922243512
 20
-513.5876147945
 10
549.6145449599
 20
-516.1192048073
 10
550.5877196433
 20
-518.6136765759
 10
551.9054369107
 20
-521.0548531213
 10
553.5591488545
 20
-523.4269026584
 10
555.5381337114
 20
-525.7144416224
 10
557.829553815
 20
-527.902635033
 10
560.4185497667
 20
-529.9772903967
 10
563.2883318099
 20
-531.9249530344
 10
566.4202868426
 20
-533.7329921896
 10
569.7941030471
 20
-535.3896820995
 10
573.3879009408
 20
-536.8842776491
 10
577.1783738104
 20
-538.2070863181
 10
581.1409368722
 20
-539.3495299584
 10
585.2498924025
 20
-540.3041975428
 10
589.4785923978
 20
-541.0648995293
 10
593.7996124306
 20
-541.6267013158
 10
598.184930115
 20
-541.9859593562
 10
602.6061029137
 20
-542.1403447313
 10
607.0344564816
 20
-542.0888545536
 10
611.4412756442
 20
-541.831824893
 10
615.7979769355
 20
-541.3709208927
 10
620.0763101133
 20
-540.709132967
 10
624.2485214778
 20
-539.8507524711
 10
628.2875567036
 20
-538.8013458489
 10
632.1672215242
 20
-537.567719658
 10
635.8623522955
 20
-536.1578738083
 10
639.3489868878
 20
-534.5809515701
 10
642.6045131875
 20
-532.8471812177
  0
ENDSEC
  0
SECTION
  2
OBJECTS
  0
DICTIONARY
  5
C
330
0
100
AcDbDictionary
281
     1
  3
ACAD_GROUP
350
D
  3
ACAD_LAYOUT
350
1A
  3
ACAD_MLINESTYLE
350
17
  3
ACAD_PLOTSETTINGS
350
19
  3
ACAD_PLOTSTYLENAME
350
E
  3
ACAD_SCALELIST
350
47
  0
DICTIONARY
  5
D
102
{ACAD_REACTORS
330
C
102
}
330
C
100
AcDbDictionary
281
     1
  0
DICTIONARY
  5
1A
102
{ACAD_REACTORS
330
C
102
}
330
C
100
AcDbDictionary
281
     1
  3
Layout1
350
1E
  3
Layout2
350
26
  3
Model
350
22
  0
DICTIONARY
  5
17
102
{ACAD_REACTORS
330
C
102
}
330
C
100
AcDbDictionary
281
     1
  3
Standard
350
18
  0
DICTIONARY
  5
19
102
{ACAD_REACTORS
330
C
102
}
330
C
100
AcDbDictionary
281
     1
  0
ACDBDICTIONARYWDFLT
  5
E
102
{ACAD_REACTORS
330
C
102
}
330
C
100
AcDbDictionary
281
     1
  3
Normal
350
F
100
AcDbDictionaryWithDefault
340
F
  0
DICTIONARY
  5
47
102
{ACAD_REACTORS
330
C
102
}
330
C
100
AcDbDictionary
281
     1
  3
A0
350
48
  3
A1
350
49
  3
A2
350
4A
  3
A3
350
4B
  3
A4
350
4C
  3
A5
350
4D
  3
A6
350
4E
  3
A7
350
4F
  3
A8
350
50
  3
A9
350
51
  3
B0
350
52
  3
B1
350
53
  3
B2
350
54
  3
B3
350
55
  3
B4
350
56
  3
B5
350
57
  3
B6
350
58
  3
B7
350
59
  3
B8
350
5A
  3
B9
350
5B
  3
C0
350
5C
  3
C1
350
5D
  3
C2
350
5E
  3
C3
350
5F
  3
C4
350
60
  3
C5
350
61
  3
C6
350
62
  3
C7
350
63
  3
C8
350
64
  3
C9
350
65
  3
D0
350
66
  3
D1
350
67
  3
D2
350
68
  0
LAYOUT
  5
1E
102
{ACAD_REACTORS
330
1A
102
}
330
1A
100
AcDbPlotSettings
  1

  2
none_device
  4

  6

 40
0.0
 41
0.0
 42
0.0
 43
0.0
 44
0.0
 45
0.0
 46
0.0
 47
0.0
 48
0.0
 49
0.0
140
0.0
141
0.0
142
1.0
143
1.0
 70
   688
 72
     1
 73
     0
 74
     5
  7

 75
    16
147
1.0
148
0.0
149
0.0
100
AcDbLayout
  1
Layout1
 70
     1
 71
     1
 10
0.0
 20
0.0
 11
420.0
 21
297.0
 12
0.0
 22
0.0
 32
0.0
 14
1.0000000000E+20
 24
1.0000000000E+20
 34
1.0000000000E+20
 15
-1.0000000000E+20
 25
-1.0000000000E+20
 35
-1.0000000000E+20
146
0.0
 13
0.0
 23
0.0
 33
0.0
 16
1.0
 26
0.0
 36
0.0
 17
0.0
 27
1.0
 37
0.0
 76
     0
330
1B
  0
LAYOUT
  5
26
102
{ACAD_REACTORS
330
1A
102
}
330
1A
100
AcDbPlotSettings
  1

  2
none_device
  4

  6

 40
0.0
 41
0.0
 42
0.0
 43
0.0
 44
0.0
 45
0.0
 46
0.0
 47
0.0
 48
0.0
 49
0.0
140
0.0
141
0.0
142
1.0
143
1.0
 70
   688
 72
     1
 73
     0
 74
     5
  7

 75
    16
147
1.0
148
0.0
149
0.0
100
AcDbLayout
  1
Layout2
 70
     1
 71
     2
 10
0.0
 20
0.0
 11
0.0
 21
0.0
 12
0.0
 22
0.0
 32
0.0
 14
0.0
 24
0.0
 34
0.0
 15
0.0
 25
0.0
 35
0.0
146
0.0
 13
0.0
 23
0.0
 33
0.0
 16
1.0
 26
0.0
 36
0.0
 17
0.0
 27
1.0
 37
0.0
 76
     0
330
23
  0
LAYOUT
  5
22
102
{ACAD_REACTORS
330
1A
102
}
330
1A
100
AcDbPlotSettings
  1

  2
none_device
  4
Letter_(8.50_x_11.00_Inches)
  6

 40
6.35
 41
6.35
 42
6.35000508
 43
6.35000508
 44
215.9
 45
279.4
 46
0.0
 47
0.0
 48
0.0
 49
0.0
140
0.0
141
0.0
142
1.0
143
1.0
 70
  1712
 72
     1
 73
     0
 74
     0
  7

 75
     0
147
1.0
148
0.0
149
0.0
100
AcDbLayout
  1
Model
 70
     1
 71
     0
 10
0.0
 20
0.0
 11
279.4
 21
215.9
 12
0.0
 22
0.0
 32
0.0
 14
0.0
 24
0.0
 34
0.0
 15
279.4
 25
215.9
 35
0.0
146
0.0
 13
0.0
 23
0.0
 33
0.0
 16
1.0
 26
0.0
 36
0.0
 17
0.0
 27
1.0
 37
0.0
 76
     0
330
1F
331
29
  0
MLINESTYLE
  5
18
102
{ACAD_REACTORS
330
17
102
}
330
17
100
AcDbMlineStyle
  2
Standard
 70
     0
  3

 62
   256
 51
90.0
 52
90.0
 71
     2
 49
0.5
 62
   256
  6
BYLAYER
 49
-0.5
 62
   256
  6
BYLAYER
  0
ACDBPLACEHOLDER
  5
F
102
{ACAD_REACTORS
330
E
102
}
330
E
  0
SCALE
  5
48
102
{ACAD_REACTORS
330
47
102
}
330
47
100
AcDbScale
 70
     0
300
1:1
140
1.0
141
1.0
290
     1
  0
SCALE
  5
49
102
{ACAD_REACTORS
330
47
102
}
330
47
100
AcDbScale
 70
     0
300
1:2
140
1.0
141
2.0
290
     0
  0
SCALE
  5
4A
102
{ACAD_REACTORS
330
47
102
}
330
47
100
AcDbScale
 70
     0
300
1:4
140
1.0
141
4.0
290
     0
  0
SCALE
  5
4B
102
{ACAD_REACTORS
330
47
102
}
330
47
100
AcDbScale
 70
     0
300
1:5
140
1.0
141
5.0
290
     0
  0
SCALE
  5
4C
102
{ACAD_REACTORS
330
47
102
}
330
47
100
AcDbScale
 70
     0
300
1:8
140
1.0
141
8.0
290
     0
  0
SCALE
  5
4D
102
{ACAD_REACTORS
330
47
102
}
330
47
100
AcDbScale
 70
     0
300
1:10
140
1.0
141
10.0
290
     0
  0
SCALE
  5
4E
102
{ACAD_REACTORS
330
47
102
}
330
47
100
AcDbScale
 70
     0
300
1:16
140
1.0
141
16.0
290
     0
  0
SCALE
  5
4F
102
{ACAD_REACTORS
330
47
102
}
330
47
100
AcDbScale
 70
     0
300
1:20
140
1.0
141
20.0
290
     0
  0
SCALE
  5
50
102
{ACAD_REACTORS
330
47
102
}
330
47
100
AcDbScale
 70
     0
300
1:30
140
1.0
141
30.0
290
     0
  0
SCALE
  5
51
102
{ACAD_REACTORS
330
47
102
}
330
47
100
AcDbScale
 70
     0
300
1:40
140
1.0
141
40.0
290
     0
  0
SCALE
  5
52
102
{ACAD_REACTORS
330
47
102
}
330
47
100
AcDbScale
 70
     0
300
1:50
140
1.0
141
50.0
290
     0
  0
SCALE
  5
53
102
{ACAD_REACTORS
330
47
102
}
330
47
100
AcDbScale
 70
     0
300
1:100
140
1.0
141
100.0
290
     0
  0
SCALE
  5
54
102
{ACAD_REACTORS
330
47
102
}
330
47
100
AcDbScale
 70
     0
300
2:1
140
2.0
141
1.0
290
     0
  0
SCALE
  5
55
102
{ACAD_REACTORS
330
47
102
}
330
47
100
AcDbScale
 70
     0
300
4:1
140
4.0
141
1.0
290
     0
  0
SCALE
  5
56
102
{ACAD_REACTORS
330
47
102
}
330
47
100
AcDbScale
 70
     0
300
8:1
140
8.0
141
1.0
290
     0
  0
SCALE
  5
57
102
{ACAD_REACTORS
330
47
102
}
330
47
100
AcDbScale
 70
     0
300
10:1
140
10.0
141
1.0
290
     0
  0
SCALE
  5
58
102
{ACAD_REACTORS
330
47
102
}
330
47
100
AcDbScale
 70
     0
300
100:1
140
100.0
141
1.0
290
     0
  0
SCALE
  5
59
102
{ACAD_REACTORS
330
47
102
}
330
47
100
AcDbScale
 70
     0
300
1/128" = 1'-0"
140
0.0078125
141
12.0
290
     0
  0
SCALE
  5
5A
102
{ACAD_REACTORS
330
47
102
}
330
47
100
AcDbScale
 70
     0
300
1/64" = 1'-0"
140
0.015625
141
12.0
290
     0
  0
SCALE
  5
5B
102
{ACAD_REACTORS
330
47
102
}
330
47
100
AcDbScale
 70
     0
300
1/32" = 1'-0"
140
0.03125
141
12.0
290
     0
  0
SCALE
  5
5C
102
{ACAD_REACTORS
330
47
102
}
330
47
100
AcDbScale
 70
     0
300
1/16" = 1'-0"
140
0.0625
141
12.0
290
     0
  0
SCALE
  5
5D
102
{ACAD_REACTORS
330
47
102
}
330
47
100
AcDbScale
 70
     0
300
3/32" = 1'-0"
140
0.09375
141
12.0
290
     0
  0
SCALE
  5
5E
102
{ACAD_REACTORS
330
47
102
}
330
47
100
AcDbScale
 70
     0
300
1/8" = 1'-0"
140
0.125
141
12.0
290
     0
  0
SCALE
  5
5F
102
{ACAD_REACTORS
330
47
102
}
330
47
100
AcDbScale
 70
     0
300
3/16" = 1'-0"
140
0.1875
141
12.0
290
     0
  0
SCALE
  5
60
102
{ACAD_REACTORS
330
47
102
}
330
47
100
AcDbScale
 70
     0
300
1/4" = 1'-0"
140
0.25
141
12.0
290
     0
  0
SCALE
  5
61
102
{ACAD_REACTORS
330
47
102
}
330
47
100
AcDbScale
 70
     0
300
3/8" = 1'-0"
140
0.375
141
12.0
290
     0
  0
SCALE
  5
62
102
{ACAD_REACTORS
330
47
102
}
330
47
100
AcDbScale
 70
     0
300
1/2" = 1'-0"
140
0.5
141
12.0
290
     0
  0
SCALE
  5
63
102
{ACAD_REACTORS
330
47
102
}
330
47
100
AcDbScale
 70
     0
300
3/4" = 1'-0"
140
0.75
141
12.0
290
     0
  0
SCALE
  5
64
102
{ACAD_REACTORS
330
47
102
}
330
47
100
AcDbScale
 70
     0
300
1" = 1'-0"
140
1.0
141
12.0
290
     0
  0
SCALE
  5
65
102
{ACAD_REACTORS
330
47
102
}
330
47
100
AcDbScale
 70
     0
300
1-1/2" = 1'-0"
140
1.5
141
12.0
290
     0
  0
SCALE
  5
66
102
{ACAD_REACTORS
330
47
102
}
330
47
100
AcDbScale
 70
     0
300
3" = 1'-0"
140
3.0
141
12.0
290
     0
  0
SCALE
  5
67
102
{ACAD_REACTORS
330
47
102
}
330
47
100
AcDbScale
 70
     0
300
6" = 1'-0"
140
6.0
141
12.0
290
     0
  0
SCALE
  5
68
102
{ACAD_REACTORS
330
47
102
}
330
47
100
AcDbScale
 70
     0
300
1'-0" = 1'-0"
140
12.0
141
12.0
290
     0
  0
ENDSEC
  0
EOF
